ISO-10303-21;
HEADER;
FILE_DESCRIPTION (( 'STEP AP203' ),
    '1' );
FILE_NAME ('QB-CTZQWP-25.4-1310-M.STEP',
    '2020-12-24T01:50:55',
    ( '' ),
    ( '' ),
    'SwSTEP 2.0',
    'SolidWorks 2020',
    '' );
FILE_SCHEMA (( 'CONFIG_CONTROL_DESIGN' ));
ENDSEC;

DATA;
#1 = DIRECTION ( 'NONE',  ( -1.000000000000000000, -0.000000000000000000, -0.000000000000000000 ) ) ;
#2 = APPROVAL_PERSON_ORGANIZATION ( #171, #107, #69 ) ;
#3 = PERSON_AND_ORGANIZATION ( #93, #87 ) ;
#4 = CARTESIAN_POINT ( 'NONE',  ( -1.614212418857619014, 1.836970198721029589E-15, -15.00000000000000000 ) ) ;
#5 = ORIENTED_EDGE ( 'NONE', *, *, #58, .F. ) ;
#6 = ORIENTED_EDGE ( 'NONE', *, *, #175, .F. ) ;
#7 = ADVANCED_BREP_SHAPE_REPRESENTATION ( 'QB-CTZQWP-25.4-1310-M', ( #125, #99 ), #169 ) ;
#8 = VERTEX_POINT ( 'NONE', #117 ) ;
#9 = CC_DESIGN_PERSON_AND_ORGANIZATION_ASSIGNMENT ( #3, #145, ( #101 ) ) ;
#10 = CC_DESIGN_APPROVAL ( #35, ( #159 ) ) ;
#11 = APPLICATION_CONTEXT ( 'configuration controlled 3d designs of mechanical parts and assemblies' ) ;
#12 = DATE_AND_TIME ( #24, #160 ) ;
#13 = CYLINDRICAL_SURFACE ( 'NONE', #118, 15.00000000000000000 ) ;
#14 = DIRECTION ( 'NONE',  ( 0.000000000000000000, 0.000000000000000000, 1.000000000000000000 ) ) ;
#15 = APPROVAL_PERSON_ORGANIZATION ( #38, #35, #52 ) ;
#16 = CYLINDRICAL_SURFACE ( 'NONE', #124, 15.00000000000000000 ) ;
#17 = ORIENTED_EDGE ( 'NONE', *, *, #133, .F. ) ;
#18 = DIRECTION ( 'NONE',  ( 1.000000000000000000, 0.000000000000000000, 0.000000000000000000 ) ) ;
#19 = VERTEX_POINT ( 'NONE', #119 ) ;
#20 = PERSON_AND_ORGANIZATION ( #93, #87 ) ;
#21 = PERSON_AND_ORGANIZATION ( #93, #87 ) ;
#22 = ADVANCED_FACE ( 'NONE', ( #64 ), #155, .F. ) ;
#23 = DATE_AND_TIME ( #112, #84 ) ;
#24 = CALENDAR_DATE ( 2020, 24, 12 ) ;
#25 = LOCAL_TIME ( 9, 50, 55.00000000000000000, #134 ) ;
#26 = DIRECTION ( 'NONE',  ( -1.000000000000000000, -0.000000000000000000, -0.000000000000000000 ) ) ;
#27 = DIRECTION ( 'NONE',  ( -1.000000000000000000, -0.000000000000000000, -0.000000000000000000 ) ) ;
#28 = DIRECTION ( 'NONE',  ( 0.000000000000000000, 0.000000000000000000, 1.000000000000000000 ) ) ;
#29 = CIRCLE ( 'NONE', #53, 15.00000000000000000 ) ;
#30 = DIRECTION ( 'NONE',  ( 0.000000000000000000, 0.000000000000000000, 1.000000000000000000 ) ) ;
#31 = ORIENTED_EDGE ( 'NONE', *, *, #89, .F. ) ;
#32 = ORIENTED_EDGE ( 'NONE', *, *, #136, .F. ) ;
#33 = EDGE_LOOP ( 'NONE', ( #5, #109, #158, #32 ) ) ;
#34 = EDGE_LOOP ( 'NONE', ( #31, #6 ) ) ;
#35 = APPROVAL ( #85, 'UNSPECIFIED' ) ;
#36 = APPLICATION_PROTOCOL_DEFINITION ( 'international standard', 'config_control_design', 1994, #108 ) ;
#37 = PERSON_AND_ORGANIZATION ( #93, #87 ) ;
#38 = PERSON_AND_ORGANIZATION ( #93, #87 ) ;
#39 = APPROVAL_DATE_TIME ( #55, #35 ) ;
#40 = AXIS2_PLACEMENT_3D ( 'NONE', #43, #46, #88 ) ;
#41 = CALENDAR_DATE ( 2020, 24, 12 ) ;
#42 = ADVANCED_FACE ( 'NONE', ( #167 ), #157, .F. ) ;
#43 = CARTESIAN_POINT ( 'NONE',  ( -3.000000000000000000, 0.000000000000000000, 0.000000000000000000 ) ) ;
#44 = LINE ( 'NONE', #61, #174 ) ;
#45 = FACE_OUTER_BOUND ( 'NONE', #48, .T. ) ;
#46 = DIRECTION ( 'NONE',  ( -1.000000000000000000, -0.000000000000000000, -0.000000000000000000 ) ) ;
#47 = CARTESIAN_POINT ( 'NONE',  ( 3.000000000000000888, 12.69999999999999929, 0.000000000000000000 ) ) ;
#48 = EDGE_LOOP ( 'NONE', ( #65, #115, #17, #67 ) ) ;
#49 = CIRCLE ( 'NONE', #40, 15.00000000000000000 ) ;
#50 = PERSON_AND_ORGANIZATION_ROLE ( 'creator' ) ;
#51 = CC_DESIGN_PERSON_AND_ORGANIZATION_ASSIGNMENT ( #20, #70, ( #82 ) ) ;
#52 = APPROVAL_ROLE ( '' ) ;
#53 = AXIS2_PLACEMENT_3D ( 'NONE', #106, #152, #166 ) ;
#54 = CALENDAR_DATE ( 2020, 24, 12 ) ;
#55 = DATE_AND_TIME ( #96, #140 ) ;
#56 = SECURITY_CLASSIFICATION_LEVEL ( 'unclassified' ) ;
#57 = VECTOR ( 'NONE', #26, 1000.000000000000000 ) ;
#58 = EDGE_CURVE ( 'NONE', #8, #130, #126, .T. ) ;
#59 = DIRECTION ( 'NONE',  ( 0.000000000000000000, 0.000000000000000000, 1.000000000000000000 ) ) ;
#60 = PRODUCT_RELATED_PRODUCT_CATEGORY ( 'detail', '', ( #101 ) ) ;
#61 = CARTESIAN_POINT ( 'NONE',  ( -1.614212418857619014, 0.000000000000000000, 15.00000000000000000 ) ) ;
#62 = VERTEX_POINT ( 'NONE', #164 ) ;
#63 = ADVANCED_FACE ( 'NONE', ( #91 ), #16, .T. ) ;
#64 = FACE_OUTER_BOUND ( 'NONE', #34, .T. ) ;
#65 = ORIENTED_EDGE ( 'NONE', *, *, #89, .T. ) ;
#66 = UNCERTAINTY_MEASURE_WITH_UNIT (LENGTH_MEASURE( 1.000000000000000082E-05 ), #75, 'distance_accuracy_value', 'NONE');
#67 = ORIENTED_EDGE ( 'NONE', *, *, #72, .F. ) ;
#68 = DATE_TIME_ROLE ( 'classification_date' ) ;
#69 = APPROVAL_ROLE ( '' ) ;
#70 = PERSON_AND_ORGANIZATION_ROLE ( 'classification_officer' ) ;
#71 = CC_DESIGN_DATE_AND_TIME_ASSIGNMENT ( #163, #123, ( #159 ) ) ;
#72 = EDGE_CURVE ( 'NONE', #62, #19, #44, .T. ) ;
#73 = APPROVAL_PERSON_ORGANIZATION ( #37, #138, #98 ) ;
#74 = CC_DESIGN_PERSON_AND_ORGANIZATION_ASSIGNMENT ( #21, #121, ( #170 ) ) ;
#75 =( LENGTH_UNIT ( ) NAMED_UNIT ( * ) SI_UNIT ( .MILLI., .METRE. ) );
#76 = CARTESIAN_POINT ( 'NONE',  ( -3.000000000000000000, 0.000000000000000000, 0.000000000000000000 ) ) ;
#77 = AXIS2_PLACEMENT_3D ( 'NONE', #76, #104, #28 ) ;
#78 = DIRECTION ( 'NONE',  ( -1.000000000000000000, -0.000000000000000000, -0.000000000000000000 ) ) ;
#79 = APPLICATION_PROTOCOL_DEFINITION ( 'international standard', 'config_control_design', 1994, #11 ) ;
#80 = ADVANCED_FACE ( 'NONE', ( #45 ), #13, .T. ) ;
#81 = DIRECTION ( 'NONE',  ( 0.000000000000000000, 0.000000000000000000, -1.000000000000000000 ) ) ;
#82 = SECURITY_CLASSIFICATION ( '', '', #56 ) ;
#83 = PERSON_AND_ORGANIZATION ( #93, #87 ) ;
#84 = LOCAL_TIME ( 9, 50, 55.00000000000000000, #120 ) ;
#85 = APPROVAL_STATUS ( 'not_yet_approved' ) ;
#86 = CLOSED_SHELL ( 'NONE', ( #80, #22, #63, #42 ) ) ;
#87 = ORGANIZATION ( 'UNSPECIFIED', 'UNSPECIFIED', '' ) ;
#88 = DIRECTION ( 'NONE',  ( 0.000000000000000000, 0.000000000000000000, 1.000000000000000000 ) ) ;
#89 = EDGE_CURVE ( 'NONE', #62, #8, #29, .T. ) ;
#90 =( NAMED_UNIT ( * ) PLANE_ANGLE_UNIT ( ) SI_UNIT ( $, .RADIAN. ) );
#91 = FACE_OUTER_BOUND ( 'NONE', #33, .T. ) ;
#92 = CC_DESIGN_APPROVAL ( #107, ( #170 ) ) ;
#93 = PERSON ( 'UNSPECIFIED', 'UNSPECIFIED', 'UNSPECIFIED', ('UNSPECIFIED'), ('UNSPECIFIED'), ('UNSPECIFIED') ) ;
#94 = ORIENTED_EDGE ( 'NONE', *, *, #133, .T. ) ;
#95 = EDGE_LOOP ( 'NONE', ( #94, #131 ) ) ;
#96 = CALENDAR_DATE ( 2020, 24, 12 ) ;
#97 = APPROVAL_DATE_TIME ( #172, #107 ) ;
#98 = APPROVAL_ROLE ( '' ) ;
#99 = AXIS2_PLACEMENT_3D ( 'NONE', #114, #30, #165 ) ;
#100 = CC_DESIGN_PERSON_AND_ORGANIZATION_ASSIGNMENT ( #149, #50, ( #159 ) ) ;
#101 = PRODUCT ( 'QB-CTZQWP-25.4-1310-M', 'QB-CTZQWP-25.4-1310-M', '', ( #127 ) ) ;
#102 = CARTESIAN_POINT ( 'NONE',  ( -3.000000000000000000, 1.836970198721029589E-15, -15.00000000000000000 ) ) ;
#103 = CC_DESIGN_SECURITY_CLASSIFICATION ( #82, ( #170 ) ) ;
#104 = DIRECTION ( 'NONE',  ( -1.000000000000000000, -0.000000000000000000, -0.000000000000000000 ) ) ;
#105 = CARTESIAN_POINT ( 'NONE',  ( -1.614212418857619014, 0.000000000000000000, 0.000000000000000000 ) ) ;
#106 = CARTESIAN_POINT ( 'NONE',  ( 3.000000000000000000, 0.000000000000000000, 0.000000000000000000 ) ) ;
#107 = APPROVAL ( #122, 'UNSPECIFIED' ) ;
#108 = APPLICATION_CONTEXT ( 'configuration controlled 3d designs of mechanical parts and assemblies' ) ;
#109 = ORIENTED_EDGE ( 'NONE', *, *, #175, .T. ) ;
#110 = COORDINATED_UNIVERSAL_TIME_OFFSET ( 8, 0, .AHEAD. ) ;
#111 = PERSON_AND_ORGANIZATION_ROLE ( 'design_supplier' ) ;
#112 = CALENDAR_DATE ( 2020, 24, 12 ) ;
#113 = CARTESIAN_POINT ( 'NONE',  ( -1.614212418857619014, 0.000000000000000000, 0.000000000000000000 ) ) ;
#114 = CARTESIAN_POINT ( 'NONE',  ( 0.000000000000000000, 0.000000000000000000, 0.000000000000000000 ) ) ;
#115 = ORIENTED_EDGE ( 'NONE', *, *, #58, .T. ) ;
#116 = DIRECTION ( 'NONE',  ( -0.000000000000000000, 0.000000000000000000, 1.000000000000000000 ) ) ;
#117 = CARTESIAN_POINT ( 'NONE',  ( 3.000000000000000000, 1.836970198721029589E-15, -15.00000000000000000 ) ) ;
#118 = AXIS2_PLACEMENT_3D ( 'NONE', #105, #78, #59 ) ;
#119 = CARTESIAN_POINT ( 'NONE',  ( -3.000000000000000000, 0.000000000000000000, 15.00000000000000000 ) ) ;
#120 = COORDINATED_UNIVERSAL_TIME_OFFSET ( 8, 0, .AHEAD. ) ;
#121 = PERSON_AND_ORGANIZATION_ROLE ( 'creator' ) ;
#122 = APPROVAL_STATUS ( 'not_yet_approved' ) ;
#123 = DATE_TIME_ROLE ( 'creation_date' ) ;
#124 = AXIS2_PLACEMENT_3D ( 'NONE', #113, #1, #128 ) ;
#125 = MANIFOLD_SOLID_BREP ( 'Ðý×', #86 ) ;
#126 = LINE ( 'NONE', #4, #57 ) ;
#127 = MECHANICAL_CONTEXT ( 'NONE', #11, 'mechanical' ) ;
#128 = DIRECTION ( 'NONE',  ( 0.000000000000000000, 0.000000000000000000, 1.000000000000000000 ) ) ;
#129 = LOCAL_TIME ( 9, 50, 55.00000000000000000, #146 ) ;
#130 = VERTEX_POINT ( 'NONE', #102 ) ;
#131 = ORIENTED_EDGE ( 'NONE', *, *, #136, .T. ) ;
#132 = APPROVAL_STATUS ( 'not_yet_approved' ) ;
#133 = EDGE_CURVE ( 'NONE', #19, #130, #168, .T. ) ;
#134 = COORDINATED_UNIVERSAL_TIME_OFFSET ( 8, 0, .AHEAD. ) ;
#135 = SHAPE_DEFINITION_REPRESENTATION ( #162, #7 ) ;
#136 = EDGE_CURVE ( 'NONE', #130, #19, #49, .T. ) ;
#137 =( NAMED_UNIT ( * ) SI_UNIT ( $, .STERADIAN. ) SOLID_ANGLE_UNIT ( ) );
#138 = APPROVAL ( #132, 'UNSPECIFIED' ) ;
#139 = CARTESIAN_POINT ( 'NONE',  ( 3.000000000000000000, 0.000000000000000000, 0.000000000000000000 ) ) ;
#140 = LOCAL_TIME ( 9, 50, 55.00000000000000000, #173 ) ;
#141 = CARTESIAN_POINT ( 'NONE',  ( -3.000000000000000888, 12.69999999999999929, 0.000000000000000000 ) ) ;
#142 = DESIGN_CONTEXT ( 'detailed design', #108, 'design' ) ;
#143 = AXIS2_PLACEMENT_3D ( 'NONE', #47, #156, #116 ) ;
#144 = CC_DESIGN_APPROVAL ( #138, ( #82 ) ) ;
#145 = PERSON_AND_ORGANIZATION_ROLE ( 'design_owner' ) ;
#146 = COORDINATED_UNIVERSAL_TIME_OFFSET ( 8, 0, .AHEAD. ) ;
#147 = CC_DESIGN_PERSON_AND_ORGANIZATION_ASSIGNMENT ( #83, #111, ( #170 ) ) ;
#148 = CIRCLE ( 'NONE', #153, 15.00000000000000000 ) ;
#149 = PERSON_AND_ORGANIZATION ( #93, #87 ) ;
#150 = AXIS2_PLACEMENT_3D ( 'NONE', #141, #18, #81 ) ;
#151 = CC_DESIGN_DATE_AND_TIME_ASSIGNMENT ( #23, #68, ( #82 ) ) ;
#152 = DIRECTION ( 'NONE',  ( -1.000000000000000000, -0.000000000000000000, -0.000000000000000000 ) ) ;
#153 = AXIS2_PLACEMENT_3D ( 'NONE', #139, #154, #14 ) ;
#154 = DIRECTION ( 'NONE',  ( -1.000000000000000000, -0.000000000000000000, -0.000000000000000000 ) ) ;
#155 = PLANE ( 'NONE',  #143 ) ;
#156 = DIRECTION ( 'NONE',  ( -1.000000000000000000, 0.000000000000000000, -0.000000000000000000 ) ) ;
#157 = PLANE ( 'NONE',  #150 ) ;
#158 = ORIENTED_EDGE ( 'NONE', *, *, #72, .T. ) ;
#159 = PRODUCT_DEFINITION ( 'UNKNOWN', '', #170, #142 ) ;
#160 = LOCAL_TIME ( 9, 50, 55.00000000000000000, #110 ) ;
#161 = APPROVAL_DATE_TIME ( #12, #138 ) ;
#162 = PRODUCT_DEFINITION_SHAPE ( 'NONE', 'NONE',  #159 ) ;
#163 = DATE_AND_TIME ( #41, #129 ) ;
#164 = CARTESIAN_POINT ( 'NONE',  ( 3.000000000000000000, 0.000000000000000000, 15.00000000000000000 ) ) ;
#165 = DIRECTION ( 'NONE',  ( 1.000000000000000000, 0.000000000000000000, 0.000000000000000000 ) ) ;
#166 = DIRECTION ( 'NONE',  ( 0.000000000000000000, 0.000000000000000000, 1.000000000000000000 ) ) ;
#167 = FACE_OUTER_BOUND ( 'NONE', #95, .T. ) ;
#168 = CIRCLE ( 'NONE', #77, 15.00000000000000000 ) ;
#169 =( GEOMETRIC_REPRESENTATION_CONTEXT ( 3 ) GLOBAL_UNCERTAINTY_ASSIGNED_CONTEXT ( ( #66 ) ) GLOBAL_UNIT_ASSIGNED_CONTEXT ( ( #75, #90, #137 ) ) REPRESENTATION_CONTEXT ( 'NONE', 'WORKASPACE' ) );
#170 = PRODUCT_DEFINITION_FORMATION_WITH_SPECIFIED_SOURCE ( 'ANY', '', #101, .NOT_KNOWN. ) ;
#171 = PERSON_AND_ORGANIZATION ( #93, #87 ) ;
#172 = DATE_AND_TIME ( #54, #25 ) ;
#173 = COORDINATED_UNIVERSAL_TIME_OFFSET ( 8, 0, .AHEAD. ) ;
#174 = VECTOR ( 'NONE', #27, 1000.000000000000000 ) ;
#175 = EDGE_CURVE ( 'NONE', #8, #62, #148, .T. ) ;
ENDSEC;
END-ISO-10303-21;
